ISO-10303-21;
HEADER;
FILE_DESCRIPTION (( 'STEP AP214' ),
    '1' );
FILE_NAME ('Magnetring_MR72xx.STEP',
    '2017-04-27T07:44:37',
    ( '' ),
    ( '' ),
    'SwSTEP 2.0',
    'SolidWorks 2016',
    '' );
FILE_SCHEMA (( 'AUTOMOTIVE_DESIGN' ));
ENDSEC;

DATA;
#1 = EDGE_LOOP ( 'NONE', ( #65, #5, #22, #66 ) ) ;
#2 = EDGE_CURVE ( 'NONE', #163, #147, #309, .T. ) ;
#3 = CIRCLE ( 'NONE', #265, 35.60000000000002300 ) ;
#4 = SURFACE_STYLE_FILL_AREA ( #29 ) ;
#5 = ORIENTED_EDGE ( 'NONE', *, *, #38, .T. ) ;
#6 = EDGE_LOOP ( 'NONE', ( #141, #64, #301, #249 ) ) ;
#7 = ADVANCED_FACE ( 'NONE', ( #55, #133 ), #298, .F. ) ;
#8 = DIRECTION ( 'NONE',  ( 0.0000000000000000000, 0.0000000000000000000, 1.000000000000000000 ) ) ;
#9 = DIRECTION ( 'NONE',  ( 0.0000000000000000000, 0.0000000000000000000, -1.000000000000000000 ) ) ;
#10 = DIRECTION ( 'NONE',  ( -0.0000000000000000000, -0.0000000000000000000, 1.000000000000000000 ) ) ;
#11 = AXIS2_PLACEMENT_3D ( 'NONE', #144, #48, #120 ) ;
#12 = PLANE ( 'NONE',  #285 ) ;
#13 = PRESENTATION_LAYER_ASSIGNMENT (  '', '', ( #296 ) ) ;
#14 = LINE ( 'NONE', #67, #227 ) ;
#15 = DIRECTION ( 'NONE',  ( 0.0000000000000000000, 0.0000000000000000000, 1.000000000000000000 ) ) ;
#16 = EDGE_LOOP ( 'NONE', ( #106, #293, #150, #198 ) ) ;
#17 = SURFACE_STYLE_USAGE ( .BOTH. , #167 ) ;
#18 = CARTESIAN_POINT ( 'NONE',  ( 36.00000000000000000, 4.408728476930470900E-015, 0.3999999999999767600 ) ) ;
#19 = AXIS2_PLACEMENT_3D ( 'NONE', #281, #131, #115 ) ;
#20 = DIRECTION ( 'NONE',  ( 1.000000000000000000, 0.0000000000000000000, 0.0000000000000000000 ) ) ;
#21 = EDGE_LOOP ( 'NONE', ( #52, #290 ) ) ;
#22 = ORIENTED_EDGE ( 'NONE', *, *, #266, .F. ) ;
#23 = ORIENTED_EDGE ( 'NONE', *, *, #182, .T. ) ;
#24 = DIRECTION ( 'NONE',  ( 1.000000000000000000, 0.0000000000000000000, 0.0000000000000000000 ) ) ;
#25 = APPLICATION_PROTOCOL_DEFINITION ( 'draft international standard', 'automotive_design', 1998, #73 ) ;
#26 = FACE_OUTER_BOUND ( 'NONE', #262, .T. ) ;
#27 = FACE_OUTER_BOUND ( 'NONE', #168, .T. ) ;
#28 = VERTEX_POINT ( 'NONE', #156 ) ;
#29 = FILL_AREA_STYLE ('',( #203 ) ) ;
#30 = MECHANICAL_DESIGN_GEOMETRIC_PRESENTATION_REPRESENTATION (  '', ( #296 ), #127 ) ;
#31 = CYLINDRICAL_SURFACE ( 'NONE', #263, 36.00000000000000000 ) ;
#32 = DIRECTION ( 'NONE',  ( -0.0000000000000000000, -0.0000000000000000000, -1.000000000000000000 ) ) ;
#33 = EDGE_LOOP ( 'NONE', ( #63, #214 ) ) ;
#34 = CARTESIAN_POINT ( 'NONE',  ( -35.59999999999998000, 0.0000000000000000000, 7.000000000000000000 ) ) ;
#35 = CYLINDRICAL_SURFACE ( 'NONE', #208, 27.00000000000000000 ) ;
#36 = CARTESIAN_POINT ( 'NONE',  ( 0.0000000000000000000, 0.0000000000000000000, 7.000000000000000000 ) ) ;
#37 = ORIENTED_EDGE ( 'NONE', *, *, #38, .F. ) ;
#38 = EDGE_CURVE ( 'NONE', #310, #60, #84, .T. ) ;
#39 = DIRECTION ( 'NONE',  ( -0.7071067811865474600, 0.0000000000000000000, -0.7071067811865474600 ) ) ;
#40 = CARTESIAN_POINT ( 'NONE',  ( -27.00000000000000000, 0.0000000000000000000, 7.000000000000000000 ) ) ;
#41 = ORIENTED_EDGE ( 'NONE', *, *, #97, .T. ) ;
#42 = DIRECTION ( 'NONE',  ( -1.000000000000000000, 0.0000000000000000000, 0.0000000000000000000 ) ) ;
#43 =( LENGTH_UNIT ( ) NAMED_UNIT ( * ) SI_UNIT ( .MILLI., .METRE. ) );
#44 = FACE_OUTER_BOUND ( 'NONE', #155, .T. ) ;
#45 = PRESENTATION_STYLE_ASSIGNMENT (( #134 ) ) ;
#46 = ORIENTED_EDGE ( 'NONE', *, *, #57, .T. ) ;
#47 = DIRECTION ( 'NONE',  ( 1.000000000000000000, 0.0000000000000000000, 0.0000000000000000000 ) ) ;
#48 = DIRECTION ( 'NONE',  ( -0.0000000000000000000, -0.0000000000000000000, -1.000000000000000000 ) ) ;
#49 = ADVANCED_BREP_SHAPE_REPRESENTATION ( 'Magnetring_MR72xx', ( #69, #76 ), #151 ) ;
#50 =( GEOMETRIC_REPRESENTATION_CONTEXT ( 3 ) GLOBAL_UNCERTAINTY_ASSIGNED_CONTEXT ( ( #294 ) ) GLOBAL_UNIT_ASSIGNED_CONTEXT ( ( #43, #231, #212 ) ) REPRESENTATION_CONTEXT ( 'NONE', 'WORKASPACE' ) );
#51 = VECTOR ( 'NONE', #237, 1000.000000000000000 ) ;
#52 = ORIENTED_EDGE ( 'NONE', *, *, #53, .T. ) ;
#53 = EDGE_CURVE ( 'NONE', #147, #163, #3, .T. ) ;
#54 = LINE ( 'NONE', #61, #299 ) ;
#55 = FACE_OUTER_BOUND ( 'NONE', #21, .T. ) ;
#56 = PRODUCT ( 'Magnetring_MR72xx', 'Magnetring_MR72xx', '', ( #173 ) ) ;
#57 = EDGE_CURVE ( 'NONE', #258, #59, #292, .T. ) ;
#58 = LINE ( 'NONE', #89, #79 ) ;
#59 = VERTEX_POINT ( 'NONE', #34 ) ;
#60 = VERTEX_POINT ( 'NONE', #177 ) ;
#61 = CARTESIAN_POINT ( 'NONE',  ( 35.59999999999998000, 4.359742604964575100E-015, 7.000000000000000000 ) ) ;
#62 = ADVANCED_FACE ( 'NONE', ( #204 ), #274, .T. ) ;
#63 = ORIENTED_EDGE ( 'NONE', *, *, #152, .F. ) ;
#64 = ORIENTED_EDGE ( 'NONE', *, *, #77, .T. ) ;
#65 = ORIENTED_EDGE ( 'NONE', *, *, #152, .T. ) ;
#66 = ORIENTED_EDGE ( 'NONE', *, *, #121, .F. ) ;
#67 = CARTESIAN_POINT ( 'NONE',  ( 36.00000000000000000, 4.408728476930470900E-015, 7.000000000000000000 ) ) ;
#68 = CARTESIAN_POINT ( 'NONE',  ( 0.0000000000000000000, 0.0000000000000000000, 0.0000000000000000000 ) ) ;
#69 = MANIFOLD_SOLID_BREP ( 'Fase1', #80 ) ;
#70 = AXIS2_PLACEMENT_3D ( 'NONE', #183, #206, #180 ) ;
#71 = DIRECTION ( 'NONE',  ( 1.000000000000000000, 0.0000000000000000000, 0.0000000000000000000 ) ) ;
#72 = ORIENTED_EDGE ( 'NONE', *, *, #244, .F. ) ;
#73 = APPLICATION_CONTEXT ( 'automotive_design' ) ;
#74 = SURFACE_STYLE_FILL_AREA ( #259 ) ;
#75 = ORIENTED_EDGE ( 'NONE', *, *, #53, .F. ) ;
#76 = AXIS2_PLACEMENT_3D ( 'NONE', #213, #218, #171 ) ;
#77 = EDGE_CURVE ( 'NONE', #258, #129, #54, .T. ) ;
#78 = ADVANCED_FACE ( 'NONE', ( #210 ), #35, .F. ) ;
#79 = VECTOR ( 'NONE', #91, 1000.000000000000000 ) ;
#80 = CLOSED_SHELL ( 'NONE', ( #209, #62, #78, #260, #145, #7, #236, #101, #142, #270 ) ) ;
#81 = DIRECTION ( 'NONE',  ( 1.000000000000000000, 0.0000000000000000000, 0.0000000000000000000 ) ) ;
#82 = CARTESIAN_POINT ( 'NONE',  ( 0.0000000000000000000, 0.0000000000000000000, 0.3999999999999767600 ) ) ;
#83 = PRESENTATION_LAYER_ASSIGNMENT (  '', '', ( #215 ) ) ;
#84 = LINE ( 'NONE', #104, #267 ) ;
#85 = ORIENTED_EDGE ( 'NONE', *, *, #266, .T. ) ;
#86 = DIRECTION ( 'NONE',  ( -1.000000000000000000, 0.0000000000000000000, 0.0000000000000000000 ) ) ;
#87 = AXIS2_PLACEMENT_3D ( 'NONE', #36, #305, #86 ) ;
#88 =( LENGTH_UNIT ( ) NAMED_UNIT ( * ) SI_UNIT ( .MILLI., .METRE. ) );
#89 = CARTESIAN_POINT ( 'NONE',  ( -36.00000000000000000, 4.408728476930470100E-015, 0.3999999999999767600 ) ) ;
#90 = ORIENTED_EDGE ( 'NONE', *, *, #278, .T. ) ;
#91 = DIRECTION ( 'NONE',  ( -0.7071067811865475700, 8.659560562354932900E-017, 0.7071067811865474600 ) ) ;
#92 = APPLICATION_CONTEXT ( 'automotive_design' ) ;
#93 = DIRECTION ( 'NONE',  ( 0.0000000000000000000, 0.0000000000000000000, 1.000000000000000000 ) ) ;
#94 = DIRECTION ( 'NONE',  ( 1.000000000000000000, 0.0000000000000000000, 0.0000000000000000000 ) ) ;
#95 =( NAMED_UNIT ( * ) PLANE_ANGLE_UNIT ( ) SI_UNIT ( $, .RADIAN. ) );
#96 = PRODUCT_DEFINITION_FORMATION_WITH_SPECIFIED_SOURCE ( 'ANY', '', #56, .NOT_KNOWN. ) ;
#97 = EDGE_CURVE ( 'NONE', #60, #125, #219, .T. ) ;
#98 = CIRCLE ( 'NONE', #313, 36.00000000000000000 ) ;
#99 = AXIS2_PLACEMENT_3D ( 'NONE', #205, #10, #94 ) ;
#100 = AXIS2_PLACEMENT_3D ( 'NONE', #161, #225, #303 ) ;
#101 = ADVANCED_FACE ( 'NONE', ( #27 ), #172, .F. ) ;
#102 = LINE ( 'NONE', #40, #140 ) ;
#103 = DIRECTION ( 'NONE',  ( -0.0000000000000000000, -0.0000000000000000000, -1.000000000000000000 ) ) ;
#104 = CARTESIAN_POINT ( 'NONE',  ( 27.00000000000000000, 3.306546357697853700E-015, 7.000000000000000000 ) ) ;
#105 = COLOUR_RGB ( '',0.5019607843137254800, 0.5019607843137254800, 0.5019607843137254800 ) ;
#106 = ORIENTED_EDGE ( 'NONE', *, *, #226, .T. ) ;
#107 = CARTESIAN_POINT ( 'NONE',  ( 0.0000000000000000000, 0.0000000000000000000, 7.000000000000000000 ) ) ;
#108 = CARTESIAN_POINT ( 'NONE',  ( -35.60000000000002300, 4.384235540947524100E-015, 0.0000000000000000000 ) ) ;
#109 = DIRECTION ( 'NONE',  ( 0.0000000000000000000, 0.0000000000000000000, -1.000000000000000000 ) ) ;
#110 = PRODUCT_RELATED_PRODUCT_CATEGORY ( 'part', '', ( #56 ) ) ;
#111 = CYLINDRICAL_SURFACE ( 'NONE', #11, 36.00000000000000000 ) ;
#112 = ORIENTED_EDGE ( 'NONE', *, *, #124, .T. ) ;
#113 = CARTESIAN_POINT ( 'NONE',  ( -35.59999999999998000, 0.0000000000000000000, 7.000000000000000000 ) ) ;
#114 = AXIS2_PLACEMENT_3D ( 'NONE', #269, #8, #250 ) ;
#115 = DIRECTION ( 'NONE',  ( 1.000000000000000000, 0.0000000000000000000, 0.0000000000000000000 ) ) ;
#116 = APPLICATION_PROTOCOL_DEFINITION ( 'draft international standard', 'automotive_design', 1998, #92 ) ;
#117 = ORIENTED_EDGE ( 'NONE', *, *, #97, .F. ) ;
#118 = CARTESIAN_POINT ( 'NONE',  ( 27.00000000000000000, 3.306546357697853700E-015, 7.000000000000000000 ) ) ;
#119 = AXIS2_PLACEMENT_3D ( 'NONE', #82, #159, #71 ) ;
#120 = DIRECTION ( 'NONE',  ( -1.000000000000000000, 0.0000000000000000000, 0.0000000000000000000 ) ) ;
#121 = EDGE_CURVE ( 'NONE', #28, #125, #102, .T. ) ;
#122 = DIRECTION ( 'NONE',  ( -0.0000000000000000000, -0.0000000000000000000, -1.000000000000000000 ) ) ;
#123 = PRESENTATION_STYLE_ASSIGNMENT (( #17 ) ) ;
#124 = EDGE_CURVE ( 'NONE', #197, #287, #162, .T. ) ;
#125 = VERTEX_POINT ( 'NONE', #254 ) ;
#126 = DIRECTION ( 'NONE',  ( -1.000000000000000000, 0.0000000000000000000, 0.0000000000000000000 ) ) ;
#127 =( GEOMETRIC_REPRESENTATION_CONTEXT ( 3 ) GLOBAL_UNCERTAINTY_ASSIGNED_CONTEXT ( ( #235 ) ) GLOBAL_UNIT_ASSIGNED_CONTEXT ( ( #88, #187, #164 ) ) REPRESENTATION_CONTEXT ( 'NONE', 'WORKASPACE' ) );
#128 = SURFACE_SIDE_STYLE ('',( #4 ) ) ;
#129 = VERTEX_POINT ( 'NONE', #138 ) ;
#130 = DIRECTION ( 'NONE',  ( -0.0000000000000000000, -0.0000000000000000000, -1.000000000000000000 ) ) ;
#131 = DIRECTION ( 'NONE',  ( 0.0000000000000000000, 0.0000000000000000000, 1.000000000000000000 ) ) ;
#132 = AXIS2_PLACEMENT_3D ( 'NONE', #211, #234, #261 ) ;
#133 = FACE_BOUND ( 'NONE', #186, .T. ) ;
#134 = SURFACE_STYLE_USAGE ( .BOTH. , #128 ) ;
#135 = EDGE_CURVE ( 'NONE', #59, #239, #271, .T. ) ;
#136 = PRODUCT_DEFINITION_CONTEXT ( 'detailed design', #73, 'design' ) ;
#137 = ORIENTED_EDGE ( 'NONE', *, *, #182, .F. ) ;
#138 = CARTESIAN_POINT ( 'NONE',  ( 36.00000000000000000, 4.408728476930470900E-015, 6.599999999999981900 ) ) ;
#139 = CARTESIAN_POINT ( 'NONE',  ( 36.00000000000000000, 0.0000000000000000000, 0.3999999999999767600 ) ) ;
#140 = VECTOR ( 'NONE', #224, 1000.000000000000000 ) ;
#141 = ORIENTED_EDGE ( 'NONE', *, *, #57, .F. ) ;
#142 = ADVANCED_FACE ( 'NONE', ( #26 ), #291, .T. ) ;
#143 = DIRECTION ( 'NONE',  ( 1.000000000000000000, 0.0000000000000000000, 0.0000000000000000000 ) ) ;
#144 = CARTESIAN_POINT ( 'NONE',  ( 0.0000000000000000000, 0.0000000000000000000, 7.000000000000000000 ) ) ;
#145 = ADVANCED_FACE ( 'NONE', ( #284, #223 ), #12, .T. ) ;
#146 = CARTESIAN_POINT ( 'NONE',  ( 35.59999999999998000, 4.384235540947522600E-015, 7.000000000000000000 ) ) ;
#147 = VERTEX_POINT ( 'NONE', #253 ) ;
#148 = AXIS2_PLACEMENT_3D ( 'NONE', #245, #297, #153 ) ;
#149 = CONICAL_SURFACE ( 'NONE', #277, 36.00000000000000000, 0.7853981633974482800 ) ;
#150 = ORIENTED_EDGE ( 'NONE', *, *, #193, .T. ) ;
#151 =( GEOMETRIC_REPRESENTATION_CONTEXT ( 3 ) GLOBAL_UNCERTAINTY_ASSIGNED_CONTEXT ( ( #160 ) ) GLOBAL_UNIT_ASSIGNED_CONTEXT ( ( #166, #95, #289 ) ) REPRESENTATION_CONTEXT ( 'NONE', 'WORKASPACE' ) );
#152 = EDGE_CURVE ( 'NONE', #28, #310, #232, .T. ) ;
#153 = DIRECTION ( 'NONE',  ( 1.000000000000000000, 0.0000000000000000000, 0.0000000000000000000 ) ) ;
#154 = EDGE_LOOP ( 'NONE', ( #90, #46 ) ) ;
#155 = EDGE_LOOP ( 'NONE', ( #137, #75, #202, #252 ) ) ;
#156 = CARTESIAN_POINT ( 'NONE',  ( -27.00000000000000000, 0.0000000000000000000, 7.000000000000000000 ) ) ;
#157 = CARTESIAN_POINT ( 'NONE',  ( 0.0000000000000000000, 0.0000000000000000000, 0.0000000000000000000 ) ) ;
#158 = FACE_OUTER_BOUND ( 'NONE', #174, .T. ) ;
#159 = DIRECTION ( 'NONE',  ( -0.0000000000000000000, -0.0000000000000000000, 1.000000000000000000 ) ) ;
#160 = UNCERTAINTY_MEASURE_WITH_UNIT (LENGTH_MEASURE( 1.000000000000000100E-005 ), #166, 'distance_accuracy_value', 'NONE');
#161 = CARTESIAN_POINT ( 'NONE',  ( 0.0000000000000000000, 0.0000000000000000000, 0.3999999999999767600 ) ) ;
#162 = CIRCLE ( 'NONE', #100, 36.00000000000000000 ) ;
#163 = VERTEX_POINT ( 'NONE', #108 ) ;
#164 =( NAMED_UNIT ( * ) SI_UNIT ( $, .STERADIAN. ) SOLID_ANGLE_UNIT ( ) );
#165 = AXIS2_PLACEMENT_3D ( 'NONE', #188, #109, #251 ) ;
#166 =( LENGTH_UNIT ( ) NAMED_UNIT ( * ) SI_UNIT ( .MILLI., .METRE. ) );
#167 = SURFACE_SIDE_STYLE ('',( #74 ) ) ;
#168 = EDGE_LOOP ( 'NONE', ( #37, #221, #240, #117 ) ) ;
#169 = DIRECTION ( 'NONE',  ( -1.000000000000000000, 0.0000000000000000000, 0.0000000000000000000 ) ) ;
#170 = AXIS2_PLACEMENT_3D ( 'NONE', #200, #9, #126 ) ;
#171 = DIRECTION ( 'NONE',  ( 1.000000000000000000, 0.0000000000000000000, 0.0000000000000000000 ) ) ;
#172 = CYLINDRICAL_SURFACE ( 'NONE', #87, 27.00000000000000000 ) ;
#173 = PRODUCT_CONTEXT ( 'NONE', #92, 'mechanical' ) ;
#174 = EDGE_LOOP ( 'NONE', ( #72, #195, #264, #112 ) ) ;
#175 = PRODUCT_DEFINITION_SHAPE ( 'NONE', 'NONE',  #302 ) ;
#176 = CONICAL_SURFACE ( 'NONE', #119, 36.00000000000000000, 0.7853981633974482800 ) ;
#177 = CARTESIAN_POINT ( 'NONE',  ( 27.00000000000000000, 3.306546357697853700E-015, 0.0000000000000000000 ) ) ;
#178 = ORIENTED_EDGE ( 'NONE', *, *, #135, .T. ) ;
#179 = ORIENTED_EDGE ( 'NONE', *, *, #193, .F. ) ;
#180 = DIRECTION ( 'NONE',  ( 1.000000000000000000, 0.0000000000000000000, 0.0000000000000000000 ) ) ;
#181 = AXIS2_PLACEMENT_3D ( 'NONE', #189, #93, #143 ) ;
#182 = EDGE_CURVE ( 'NONE', #163, #197, #58, .T. ) ;
#183 = CARTESIAN_POINT ( 'NONE',  ( 0.0000000000000000000, 0.0000000000000000000, 0.0000000000000000000 ) ) ;
#184 = EDGE_CURVE ( 'NONE', #129, #239, #98, .T. ) ;
#185 = ORIENTED_EDGE ( 'NONE', *, *, #2, .F. ) ;
#186 = EDGE_LOOP ( 'NONE', ( #85, #41 ) ) ;
#187 =( NAMED_UNIT ( * ) PLANE_ANGLE_UNIT ( ) SI_UNIT ( $, .RADIAN. ) );
#188 = CARTESIAN_POINT ( 'NONE',  ( 0.0000000000000000000, 0.0000000000000000000, 7.000000000000000000 ) ) ;
#189 = CARTESIAN_POINT ( 'NONE',  ( 0.0000000000000000000, 0.0000000000000000000, 7.000000000000000000 ) ) ;
#190 = CIRCLE ( 'NONE', #242, 27.00000000000000000 ) ;
#191 = CARTESIAN_POINT ( 'NONE',  ( -36.00000000000000000, 0.0000000000000000000, 6.599999999999981900 ) ) ;
#192 = ORIENTED_EDGE ( 'NONE', *, *, #199, .F. ) ;
#193 = EDGE_CURVE ( 'NONE', #287, #197, #256, .T. ) ;
#194 = LINE ( 'NONE', #216, #51 ) ;
#195 = ORIENTED_EDGE ( 'NONE', *, *, #184, .T. ) ;
#196 = AXIS2_PLACEMENT_3D ( 'NONE', #68, #15, #20 ) ;
#197 = VERTEX_POINT ( 'NONE', #307 ) ;
#198 = ORIENTED_EDGE ( 'NONE', *, *, #300, .F. ) ;
#199 = EDGE_CURVE ( 'NONE', #147, #287, #220, .T. ) ;
#200 = CARTESIAN_POINT ( 'NONE',  ( 0.0000000000000000000, 0.0000000000000000000, 7.000000000000000000 ) ) ;
#201 = FACE_OUTER_BOUND ( 'NONE', #243, .T. ) ;
#202 = ORIENTED_EDGE ( 'NONE', *, *, #199, .T. ) ;
#203 = FILL_AREA_STYLE_COLOUR ( '', #105 ) ;
#204 = FACE_OUTER_BOUND ( 'NONE', #6, .T. ) ;
#205 = CARTESIAN_POINT ( 'NONE',  ( 0.0000000000000000000, 0.0000000000000000000, 0.3999999999999767600 ) ) ;
#206 = DIRECTION ( 'NONE',  ( 0.0000000000000000000, 0.0000000000000000000, 1.000000000000000000 ) ) ;
#207 = DIRECTION ( 'NONE',  ( 0.7071067811865474600, 8.659560562354932900E-017, -0.7071067811865474600 ) ) ;
#208 = AXIS2_PLACEMENT_3D ( 'NONE', #222, #32, #42 ) ;
#209 = ADVANCED_FACE ( 'NONE', ( #201 ), #176, .T. ) ;
#210 = FACE_OUTER_BOUND ( 'NONE', #1, .T. ) ;
#211 = CARTESIAN_POINT ( 'NONE',  ( 0.0000000000000000000, 0.0000000000000000000, 6.599999999999981900 ) ) ;
#212 =( NAMED_UNIT ( * ) SI_UNIT ( $, .STERADIAN. ) SOLID_ANGLE_UNIT ( ) );
#213 = CARTESIAN_POINT ( 'NONE',  ( 0.0000000000000000000, 0.0000000000000000000, 0.0000000000000000000 ) ) ;
#214 = ORIENTED_EDGE ( 'NONE', *, *, #217, .F. ) ;
#215 = STYLED_ITEM ( 'NONE', ( #123 ), #49 ) ;
#216 = CARTESIAN_POINT ( 'NONE',  ( -36.00000000000000000, 0.0000000000000000000, 7.000000000000000000 ) ) ;
#217 = EDGE_CURVE ( 'NONE', #310, #28, #190, .T. ) ;
#218 = DIRECTION ( 'NONE',  ( 0.0000000000000000000, 0.0000000000000000000, 1.000000000000000000 ) ) ;
#219 = CIRCLE ( 'NONE', #70, 27.00000000000000000 ) ;
#220 = LINE ( 'NONE', #139, #314 ) ;
#221 = ORIENTED_EDGE ( 'NONE', *, *, #217, .T. ) ;
#222 = CARTESIAN_POINT ( 'NONE',  ( 0.0000000000000000000, 0.0000000000000000000, 7.000000000000000000 ) ) ;
#223 = FACE_BOUND ( 'NONE', #33, .T. ) ;
#224 = DIRECTION ( 'NONE',  ( -0.0000000000000000000, -0.0000000000000000000, -1.000000000000000000 ) ) ;
#225 = DIRECTION ( 'NONE',  ( -0.0000000000000000000, -0.0000000000000000000, 1.000000000000000000 ) ) ;
#226 = EDGE_CURVE ( 'NONE', #239, #129, #248, .T. ) ;
#227 = VECTOR ( 'NONE', #311, 1000.000000000000000 ) ;
#228 = DIRECTION ( 'NONE',  ( 0.0000000000000000000, 0.0000000000000000000, 1.000000000000000000 ) ) ;
#229 = DIRECTION ( 'NONE',  ( -0.0000000000000000000, -0.0000000000000000000, 1.000000000000000000 ) ) ;
#230 = SHAPE_DEFINITION_REPRESENTATION ( #175, #49 ) ;
#231 =( NAMED_UNIT ( * ) PLANE_ANGLE_UNIT ( ) SI_UNIT ( $, .RADIAN. ) );
#232 = CIRCLE ( 'NONE', #19, 27.00000000000000000 ) ;
#233 = CARTESIAN_POINT ( 'NONE',  ( 0.0000000000000000000, 0.0000000000000000000, 0.3999999999999767600 ) ) ;
#234 = DIRECTION ( 'NONE',  ( 0.0000000000000000000, 0.0000000000000000000, -1.000000000000000000 ) ) ;
#235 = UNCERTAINTY_MEASURE_WITH_UNIT (LENGTH_MEASURE( 1.000000000000000100E-005 ), #88, 'distance_accuracy_value', 'NONE');
#236 = ADVANCED_FACE ( 'NONE', ( #158 ), #111, .T. ) ;
#237 = DIRECTION ( 'NONE',  ( -0.0000000000000000000, -0.0000000000000000000, -1.000000000000000000 ) ) ;
#238 = CIRCLE ( 'NONE', #181, 35.59999999999998000 ) ;
#239 = VERTEX_POINT ( 'NONE', #191 ) ;
#240 = ORIENTED_EDGE ( 'NONE', *, *, #121, .T. ) ;
#241 = ORIENTED_EDGE ( 'NONE', *, *, #77, .F. ) ;
#242 = AXIS2_PLACEMENT_3D ( 'NONE', #257, #286, #47 ) ;
#243 = EDGE_LOOP ( 'NONE', ( #185, #23, #179, #192 ) ) ;
#244 = EDGE_CURVE ( 'NONE', #129, #287, #14, .T. ) ;
#245 = CARTESIAN_POINT ( 'NONE',  ( 0.0000000000000000000, 0.0000000000000000000, 0.0000000000000000000 ) ) ;
#246 = DIRECTION ( 'NONE',  ( 1.000000000000000000, 0.0000000000000000000, 0.0000000000000000000 ) ) ;
#247 = CIRCLE ( 'NONE', #196, 27.00000000000000000 ) ;
#248 = CIRCLE ( 'NONE', #132, 36.00000000000000000 ) ;
#249 = ORIENTED_EDGE ( 'NONE', *, *, #135, .F. ) ;
#250 = DIRECTION ( 'NONE',  ( 1.000000000000000000, 0.0000000000000000000, -0.0000000000000000000 ) ) ;
#251 = DIRECTION ( 'NONE',  ( -1.000000000000000000, 0.0000000000000000000, 0.0000000000000000000 ) ) ;
#252 = ORIENTED_EDGE ( 'NONE', *, *, #124, .F. ) ;
#253 = CARTESIAN_POINT ( 'NONE',  ( 35.60000000000002300, 0.0000000000000000000, 0.0000000000000000000 ) ) ;
#254 = CARTESIAN_POINT ( 'NONE',  ( -27.00000000000000000, 0.0000000000000000000, 0.0000000000000000000 ) ) ;
#255 = FACE_OUTER_BOUND ( 'NONE', #16, .T. ) ;
#256 = CIRCLE ( 'NONE', #99, 36.00000000000000000 ) ;
#257 = CARTESIAN_POINT ( 'NONE',  ( 0.0000000000000000000, 0.0000000000000000000, 7.000000000000000000 ) ) ;
#258 = VERTEX_POINT ( 'NONE', #146 ) ;
#259 = FILL_AREA_STYLE ('',( #308 ) ) ;
#260 = ADVANCED_FACE ( 'NONE', ( #255 ), #31, .T. ) ;
#261 = DIRECTION ( 'NONE',  ( 1.000000000000000000, 0.0000000000000000000, 0.0000000000000000000 ) ) ;
#262 = EDGE_LOOP ( 'NONE', ( #241, #268, #178, #282 ) ) ;
#263 = AXIS2_PLACEMENT_3D ( 'NONE', #312, #122, #169 ) ;
#264 = ORIENTED_EDGE ( 'NONE', *, *, #300, .T. ) ;
#265 = AXIS2_PLACEMENT_3D ( 'NONE', #157, #103, #81 ) ;
#266 = EDGE_CURVE ( 'NONE', #125, #60, #247, .T. ) ;
#267 = VECTOR ( 'NONE', #130, 1000.000000000000000 ) ;
#268 = ORIENTED_EDGE ( 'NONE', *, *, #278, .F. ) ;
#269 = CARTESIAN_POINT ( 'NONE',  ( 0.0000000000000000000, 0.0000000000000000000, 0.0000000000000000000 ) ) ;
#270 = ADVANCED_FACE ( 'NONE', ( #44 ), #149, .T. ) ;
#271 = LINE ( 'NONE', #113, #304 ) ;
#272 = DIRECTION ( 'NONE',  ( 0.0000000000000000000, 0.0000000000000000000, 1.000000000000000000 ) ) ;
#273 = COLOUR_RGB ( '',0.5019607843137254800, 0.5019607843137254800, 0.5019607843137254800 ) ;
#274 = CONICAL_SURFACE ( 'NONE', #170, 35.59999999999998000, 0.7853981633974482800 ) ;
#275 = DIRECTION ( 'NONE',  ( 0.0000000000000000000, 0.0000000000000000000, -1.000000000000000000 ) ) ;
#276 = CARTESIAN_POINT ( 'NONE',  ( 0.0000000000000000000, 0.0000000000000000000, 7.000000000000000000 ) ) ;
#277 = AXIS2_PLACEMENT_3D ( 'NONE', #233, #229, #24 ) ;
#278 = EDGE_CURVE ( 'NONE', #59, #258, #238, .T. ) ;
#279 = DIRECTION ( 'NONE',  ( 1.000000000000000000, 0.0000000000000000000, -0.0000000000000000000 ) ) ;
#280 = AXIS2_PLACEMENT_3D ( 'NONE', #107, #272, #246 ) ;
#281 = CARTESIAN_POINT ( 'NONE',  ( 0.0000000000000000000, 0.0000000000000000000, 7.000000000000000000 ) ) ;
#282 = ORIENTED_EDGE ( 'NONE', *, *, #184, .F. ) ;
#283 = DIRECTION ( 'NONE',  ( 1.000000000000000000, 0.0000000000000000000, 0.0000000000000000000 ) ) ;
#284 = FACE_OUTER_BOUND ( 'NONE', #154, .T. ) ;
#285 = AXIS2_PLACEMENT_3D ( 'NONE', #276, #228, #279 ) ;
#286 = DIRECTION ( 'NONE',  ( 0.0000000000000000000, 0.0000000000000000000, 1.000000000000000000 ) ) ;
#287 = VERTEX_POINT ( 'NONE', #18 ) ;
#288 = DIRECTION ( 'NONE',  ( 0.7071067811865475700, 0.0000000000000000000, 0.7071067811865474600 ) ) ;
#289 =( NAMED_UNIT ( * ) SI_UNIT ( $, .STERADIAN. ) SOLID_ANGLE_UNIT ( ) );
#290 = ORIENTED_EDGE ( 'NONE', *, *, #2, .T. ) ;
#291 = CONICAL_SURFACE ( 'NONE', #165, 35.59999999999998000, 0.7853981633974482800 ) ;
#292 = CIRCLE ( 'NONE', #280, 35.59999999999998000 ) ;
#293 = ORIENTED_EDGE ( 'NONE', *, *, #244, .T. ) ;
#294 = UNCERTAINTY_MEASURE_WITH_UNIT (LENGTH_MEASURE( 1.000000000000000100E-005 ), #43, 'distance_accuracy_value', 'NONE');
#295 = MECHANICAL_DESIGN_GEOMETRIC_PRESENTATION_REPRESENTATION (  '', ( #215 ), #50 ) ;
#296 = STYLED_ITEM ( 'NONE', ( #45 ), #69 ) ;
#297 = DIRECTION ( 'NONE',  ( -0.0000000000000000000, -0.0000000000000000000, -1.000000000000000000 ) ) ;
#298 = PLANE ( 'NONE',  #114 ) ;
#299 = VECTOR ( 'NONE', #207, 1000.000000000000100 ) ;
#300 = EDGE_CURVE ( 'NONE', #239, #197, #194, .T. ) ;
#301 = ORIENTED_EDGE ( 'NONE', *, *, #226, .F. ) ;
#302 = PRODUCT_DEFINITION ( 'UNKNOWN', '', #96, #136 ) ;
#303 = DIRECTION ( 'NONE',  ( 1.000000000000000000, 0.0000000000000000000, 0.0000000000000000000 ) ) ;
#304 = VECTOR ( 'NONE', #39, 1000.000000000000100 ) ;
#305 = DIRECTION ( 'NONE',  ( -0.0000000000000000000, -0.0000000000000000000, -1.000000000000000000 ) ) ;
#306 = CARTESIAN_POINT ( 'NONE',  ( 0.0000000000000000000, 0.0000000000000000000, 6.599999999999981900 ) ) ;
#307 = CARTESIAN_POINT ( 'NONE',  ( -36.00000000000000000, 0.0000000000000000000, 0.3999999999999767600 ) ) ;
#308 = FILL_AREA_STYLE_COLOUR ( '', #273 ) ;
#309 = CIRCLE ( 'NONE', #148, 35.60000000000002300 ) ;
#310 = VERTEX_POINT ( 'NONE', #118 ) ;
#311 = DIRECTION ( 'NONE',  ( -0.0000000000000000000, -0.0000000000000000000, -1.000000000000000000 ) ) ;
#312 = CARTESIAN_POINT ( 'NONE',  ( 0.0000000000000000000, 0.0000000000000000000, 7.000000000000000000 ) ) ;
#313 = AXIS2_PLACEMENT_3D ( 'NONE', #306, #275, #283 ) ;
#314 = VECTOR ( 'NONE', #288, 1000.000000000000000 ) ;
ENDSEC;
END-ISO-10303-21;
